ISO-10303-21;
HEADER;
/* Generated by software containing ST-Developer
 * from STEP Tools, Inc. (www.steptools.com) 
 */

FILE_DESCRIPTION(
/* description */ (''),
/* implementation_level */ '2;1');

FILE_NAME(
/* name */ 'M:\\Modelat 3D dels productes\\0530_DISC\\0530_050_00.stp',

/* time_stamp */ '2023-01-02T16:30:33+01:00',
/* author */ ('jferrer'),
/* organization */ (''),
/* preprocessor_version */ 'ST-DEVELOPER v18.1',
/* originating_system */ 'Autodesk Inventor 2022',
/* authorisation */ '');

FILE_SCHEMA (('CONFIG_CONTROL_DESIGN','AP203_CONFIGURATION_CONTROLLED_3D_DESIGN_OF_MECHANICAL_PARTS_AND_ASSEMBLIES_MIM_LF { 1 0 10303 203 3 1 4 }'));
ENDSEC;

DATA;
#10=MECHANICAL_DESIGN_GEOMETRIC_PRESENTATION_REPRESENTATION('',(#13),#253);
#11=SHAPE_REPRESENTATION_RELATIONSHIP('SRR','None',#260,#12);
#12=ADVANCED_BREP_SHAPE_REPRESENTATION('',(#14),#252);
#13=STYLED_ITEM('',(#269),#14);
#14=MANIFOLD_SOLID_BREP('Solid1',#129);
#15=PLANE('',#168);
#16=FACE_BOUND('',#38,.T.);
#17=FACE_BOUND('',#42,.T.);
#18=TOROIDAL_SURFACE('',#157,23.25,1.75);
#19=TOROIDAL_SURFACE('',#162,9.44753683549201,1.99999999999999);
#20=SPHERICAL_SURFACE('',#155,34.);
#21=SPHERICAL_SURFACE('',#160,37.5);
#22=CYLINDRICAL_SURFACE('',#154,1.621);
#23=FACE_OUTER_BOUND('',#32,.T.);
#24=FACE_OUTER_BOUND('',#33,.T.);
#25=FACE_OUTER_BOUND('',#34,.T.);
#26=FACE_OUTER_BOUND('',#35,.T.);
#27=FACE_OUTER_BOUND('',#36,.T.);
#28=FACE_OUTER_BOUND('',#37,.T.);
#29=FACE_OUTER_BOUND('',#39,.T.);
#30=FACE_OUTER_BOUND('',#40,.T.);
#31=FACE_OUTER_BOUND('',#41,.T.);
#32=EDGE_LOOP('',(#87,#88,#89));
#33=EDGE_LOOP('',(#90,#91,#92,#93));
#34=EDGE_LOOP('',(#94,#95,#96,#97));
#35=EDGE_LOOP('',(#98));
#36=EDGE_LOOP('',(#99,#100,#101,#102));
#37=EDGE_LOOP('',(#103));
#38=EDGE_LOOP('',(#104));
#39=EDGE_LOOP('',(#105,#106,#107,#108,#109));
#40=EDGE_LOOP('',(#110,#111,#112,#113,#114));
#41=EDGE_LOOP('',(#115));
#42=EDGE_LOOP('',(#116));
#43=LINE('',#220,#47);
#44=LINE('',#225,#48);
#45=LINE('',#228,#49);
#46=LINE('',#248,#50);
#47=VECTOR('',#175,0.8105);
#48=VECTOR('',#180,1.8105);
#49=VECTOR('',#185,1.621);
#50=VECTOR('',#212,6.97601134964585);
#51=CIRCLE('',#150,1.621);
#52=CIRCLE('',#152,2.);
#53=CIRCLE('',#153,1.621);
#54=CIRCLE('',#156,22.1118881118881);
#55=CIRCLE('',#158,24.3881118881119);
#56=CIRCLE('',#159,1.75);
#57=CIRCLE('',#161,8.96918054002406);
#58=CIRCLE('',#163,1.99999999999999);
#59=CIRCLE('',#164,7.4520226992917);
#60=CIRCLE('',#165,7.4520226992917);
#61=CIRCLE('',#167,6.5);
#62=VERTEX_POINT('',#217);
#63=VERTEX_POINT('',#219);
#64=VERTEX_POINT('',#222);
#65=VERTEX_POINT('',#224);
#66=VERTEX_POINT('',#230);
#67=VERTEX_POINT('',#233);
#68=VERTEX_POINT('',#237);
#69=VERTEX_POINT('',#240);
#70=VERTEX_POINT('',#242);
#71=VERTEX_POINT('',#246);
#72=EDGE_CURVE('',#62,#62,#51,.T.);
#73=EDGE_CURVE('',#62,#63,#43,.T.);
#74=EDGE_CURVE('',#64,#64,#52,.T.);
#75=EDGE_CURVE('',#64,#65,#44,.T.);
#76=EDGE_CURVE('',#65,#65,#53,.T.);
#77=EDGE_CURVE('',#65,#62,#45,.T.);
#78=EDGE_CURVE('',#66,#66,#54,.T.);
#79=EDGE_CURVE('',#67,#67,#55,.T.);
#80=EDGE_CURVE('',#67,#66,#56,.T.);
#81=EDGE_CURVE('',#68,#68,#57,.T.);
#82=EDGE_CURVE('',#68,#69,#58,.T.);
#83=EDGE_CURVE('',#70,#69,#59,.T.);
#84=EDGE_CURVE('',#69,#70,#60,.T.);
#85=EDGE_CURVE('',#71,#71,#61,.T.);
#86=EDGE_CURVE('',#71,#70,#46,.T.);
#87=ORIENTED_EDGE('',*,*,#72,.T.);
#88=ORIENTED_EDGE('',*,*,#73,.T.);
#89=ORIENTED_EDGE('',*,*,#73,.F.);
#90=ORIENTED_EDGE('',*,*,#74,.F.);
#91=ORIENTED_EDGE('',*,*,#75,.T.);
#92=ORIENTED_EDGE('',*,*,#76,.F.);
#93=ORIENTED_EDGE('',*,*,#75,.F.);
#94=ORIENTED_EDGE('',*,*,#76,.T.);
#95=ORIENTED_EDGE('',*,*,#77,.T.);
#96=ORIENTED_EDGE('',*,*,#72,.F.);
#97=ORIENTED_EDGE('',*,*,#77,.F.);
#98=ORIENTED_EDGE('',*,*,#78,.F.);
#99=ORIENTED_EDGE('',*,*,#79,.F.);
#100=ORIENTED_EDGE('',*,*,#80,.T.);
#101=ORIENTED_EDGE('',*,*,#78,.T.);
#102=ORIENTED_EDGE('',*,*,#80,.F.);
#103=ORIENTED_EDGE('',*,*,#79,.T.);
#104=ORIENTED_EDGE('',*,*,#81,.F.);
#105=ORIENTED_EDGE('',*,*,#81,.T.);
#106=ORIENTED_EDGE('',*,*,#82,.T.);
#107=ORIENTED_EDGE('',*,*,#83,.F.);
#108=ORIENTED_EDGE('',*,*,#84,.F.);
#109=ORIENTED_EDGE('',*,*,#82,.F.);
#110=ORIENTED_EDGE('',*,*,#85,.F.);
#111=ORIENTED_EDGE('',*,*,#86,.T.);
#112=ORIENTED_EDGE('',*,*,#83,.T.);
#113=ORIENTED_EDGE('',*,*,#84,.T.);
#114=ORIENTED_EDGE('',*,*,#86,.F.);
#115=ORIENTED_EDGE('',*,*,#85,.T.);
#116=ORIENTED_EDGE('',*,*,#74,.T.);
#117=CONICAL_SURFACE('',#149,0.8105,1.02974425867665);
#118=CONICAL_SURFACE('',#151,1.8105,0.785398163397448);
#119=CONICAL_SURFACE('',#166,6.97601134964585,0.0669891164138602);
#120=ADVANCED_FACE('',(#23),#117,.F.);
#121=ADVANCED_FACE('',(#24),#118,.F.);
#122=ADVANCED_FACE('',(#25),#22,.F.);
#123=ADVANCED_FACE('',(#26),#20,.F.);
#124=ADVANCED_FACE('',(#27),#18,.T.);
#125=ADVANCED_FACE('',(#28,#16),#21,.T.);
#126=ADVANCED_FACE('',(#29),#19,.F.);
#127=ADVANCED_FACE('',(#30),#119,.T.);
#128=ADVANCED_FACE('',(#31,#17),#15,.T.);
#129=CLOSED_SHELL('',(#120,#121,#122,#123,#124,#125,#126,#127,#128));
#130=DERIVED_UNIT_ELEMENT(#132,1.);
#131=DERIVED_UNIT_ELEMENT(#255,-3.);
#132=(
MASS_UNIT()
NAMED_UNIT(*)
SI_UNIT($,.GRAM.)
);
#133=DERIVED_UNIT((#130,#131));
#134=MEASURE_REPRESENTATION_ITEM('density measure',
POSITIVE_RATIO_MEASURE(1.),#133);
#135=PROPERTY_DEFINITION_REPRESENTATION(#140,#137);
#136=PROPERTY_DEFINITION_REPRESENTATION(#141,#138);
#137=REPRESENTATION('material name',(#139),#252);
#138=REPRESENTATION('density',(#134),#252);
#139=DESCRIPTIVE_REPRESENTATION_ITEM('Gen\X\E9rico','Gen\X\E9rico');
#140=PROPERTY_DEFINITION('material property','material name',#262);
#141=PROPERTY_DEFINITION('material property','density of part',#262);
#142=DATE_TIME_ROLE('creation_date');
#143=CC_DESIGN_DATE_AND_TIME_ASSIGNMENT(#144,#142,(#262));
#144=DATE_AND_TIME(#145,#146);
#145=CALENDAR_DATE(2021,26,3);
#146=LOCAL_TIME(0,0,0.,#147);
#147=COORDINATED_UNIVERSAL_TIME_OFFSET(0,0,.BEHIND.);
#148=AXIS2_PLACEMENT_3D('placement',#215,#169,#170);
#149=AXIS2_PLACEMENT_3D('',#216,#171,#172);
#150=AXIS2_PLACEMENT_3D('',#218,#173,#174);
#151=AXIS2_PLACEMENT_3D('',#221,#176,#177);
#152=AXIS2_PLACEMENT_3D('',#223,#178,#179);
#153=AXIS2_PLACEMENT_3D('',#226,#181,#182);
#154=AXIS2_PLACEMENT_3D('',#227,#183,#184);
#155=AXIS2_PLACEMENT_3D('',#229,#186,#187);
#156=AXIS2_PLACEMENT_3D('',#231,#188,#189);
#157=AXIS2_PLACEMENT_3D('',#232,#190,#191);
#158=AXIS2_PLACEMENT_3D('',#234,#192,#193);
#159=AXIS2_PLACEMENT_3D('',#235,#194,#195);
#160=AXIS2_PLACEMENT_3D('',#236,#196,#197);
#161=AXIS2_PLACEMENT_3D('',#238,#198,#199);
#162=AXIS2_PLACEMENT_3D('',#239,#200,#201);
#163=AXIS2_PLACEMENT_3D('',#241,#202,#203);
#164=AXIS2_PLACEMENT_3D('',#243,#204,#205);
#165=AXIS2_PLACEMENT_3D('',#244,#206,#207);
#166=AXIS2_PLACEMENT_3D('',#245,#208,#209);
#167=AXIS2_PLACEMENT_3D('',#247,#210,#211);
#168=AXIS2_PLACEMENT_3D('',#249,#213,#214);
#169=DIRECTION('axis',(0.,0.,1.));
#170=DIRECTION('refdir',(1.,0.,0.));
#171=DIRECTION('center_axis',(1.22464679914735E-16,-1.,0.));
#172=DIRECTION('ref_axis',(1.,1.22464679914735E-16,0.));
#173=DIRECTION('center_axis',(1.22464679914735E-16,-1.,0.));
#174=DIRECTION('ref_axis',(1.,1.22464679914735E-16,0.));
#175=DIRECTION('',(0.857167300702112,0.515038074910054,1.04972719113862E-16));
#176=DIRECTION('center_axis',(1.22464679914735E-16,-1.,0.));
#177=DIRECTION('ref_axis',(1.,1.22464679914735E-16,0.));
#178=DIRECTION('center_axis',(-1.22464679914735E-16,1.,0.));
#179=DIRECTION('ref_axis',(1.,1.22464679914735E-16,0.));
#180=DIRECTION('',(0.707106781186547,0.707106781186548,8.65956056235493E-17));
#181=DIRECTION('center_axis',(1.22464679914735E-16,-1.,0.));
#182=DIRECTION('ref_axis',(1.,1.22464679914735E-16,0.));
#183=DIRECTION('center_axis',(1.22464679914735E-16,-1.,0.));
#184=DIRECTION('ref_axis',(1.,1.22464679914735E-16,0.));
#185=DIRECTION('',(-1.22464679914735E-16,1.,0.));
#186=DIRECTION('center_axis',(6.12323399573677E-17,0.,1.));
#187=DIRECTION('ref_axis',(1.,0.,0.));
#188=DIRECTION('center_axis',(1.22464679914735E-16,-1.,0.));
#189=DIRECTION('ref_axis',(1.,1.22464679914735E-16,0.));
#190=DIRECTION('center_axis',(1.22464679914735E-16,-1.,0.));
#191=DIRECTION('ref_axis',(0.,0.,-1.));
#192=DIRECTION('center_axis',(1.22464679914735E-16,-1.,0.));
#193=DIRECTION('ref_axis',(1.,1.22464679914735E-16,0.));
#194=DIRECTION('center_axis',(-1.,-1.22464679914735E-16,-1.22464679914735E-16));
#195=DIRECTION('ref_axis',(-1.22464679914735E-16,0.,1.));
#196=DIRECTION('center_axis',(6.12323399573677E-17,0.,1.));
#197=DIRECTION('ref_axis',(1.,0.,0.));
#198=DIRECTION('center_axis',(1.22464679914735E-16,-1.,0.));
#199=DIRECTION('ref_axis',(1.,1.22464679914735E-16,0.));
#200=DIRECTION('center_axis',(1.22464679914735E-16,-1.,0.));
#201=DIRECTION('ref_axis',(0.,0.,-1.));
#202=DIRECTION('center_axis',(-1.,-1.22464679914735E-16,-1.22464679914735E-16));
#203=DIRECTION('ref_axis',(-1.22464679914735E-16,0.,1.));
#204=DIRECTION('center_axis',(1.22464679914735E-16,-1.,0.));
#205=DIRECTION('ref_axis',(1.,1.22464679914735E-16,0.));
#206=DIRECTION('center_axis',(1.22464679914735E-16,-1.,0.));
#207=DIRECTION('ref_axis',(1.,1.22464679914735E-16,0.));
#208=DIRECTION('center_axis',(-1.22464679914735E-16,1.,0.));
#209=DIRECTION('ref_axis',(1.,0.,0.));
#210=DIRECTION('center_axis',(1.22464679914735E-16,-1.,0.));
#211=DIRECTION('ref_axis',(1.,1.22464679914735E-16,0.));
#212=DIRECTION('',(-0.0669390249121411,0.997757068100152,-8.19766625966984E-18));
#213=DIRECTION('center_axis',(1.22464679914735E-16,-1.,0.));
#214=DIRECTION('ref_axis',(0.,0.,-1.));
#215=CARTESIAN_POINT('',(0.,0.,0.));
#216=CARTESIAN_POINT('Origin',(-1.28428679598893E-15,10.4869975317218,0.));
#217=CARTESIAN_POINT('',(-1.621,10.,-1.98515246141786E-16));
#218=CARTESIAN_POINT('Origin',(-1.22464679914735E-15,10.,0.));
#219=CARTESIAN_POINT('',(-1.34392679283052E-15,10.9739950634437,0.));
#220=CARTESIAN_POINT('',(-0.810500000000001,10.4869975317218,-9.9257623070893E-17));
#221=CARTESIAN_POINT('Origin',(-2.32070568438423E-17,0.1895,0.));
#222=CARTESIAN_POINT('',(-2.,-3.81639164714898E-16,-2.44929359829471E-16));
#223=CARTESIAN_POINT('Origin',(0.,0.,0.));
#224=CARTESIAN_POINT('',(-1.621,0.379,-1.98515246141786E-16));
#225=CARTESIAN_POINT('',(-1.8105,0.1895,-2.21722302985628E-16));
#226=CARTESIAN_POINT('Origin',(-4.64141136876847E-17,0.379,0.));
#227=CARTESIAN_POINT('Origin',(-6.12323399573677E-16,5.,0.));
#228=CARTESIAN_POINT('',(-1.621,5.,-1.98515246141786E-16));
#229=CARTESIAN_POINT('Origin',(3.99112391842122E-15,52.41,0.));
#230=CARTESIAN_POINT('',(-5.96333163450735E-15,26.5824100209226,22.1118881118881));
#231=CARTESIAN_POINT('Origin',(-3.25540633457453E-15,26.5824100209226,0.));
#232=CARTESIAN_POINT('Origin',(-3.09260653473411E-15,25.2530487719994,0.));
#233=CARTESIAN_POINT('',(-5.91648905099607E-15,23.9236875230764,24.3881118881119));
#234=CARTESIAN_POINT('Origin',(-2.92980673489369E-15,23.9236875230764,0.));
#235=CARTESIAN_POINT('Origin',(-5.93991034275171E-15,25.2530487719994,23.25));
#236=CARTESIAN_POINT('Origin',(3.99112391842122E-15,52.41,0.));
#237=CARTESIAN_POINT('',(-3.05764812816105E-15,15.9984111793999,8.96918054002406));
#238=CARTESIAN_POINT('Origin',(-1.95924030422953E-15,15.9984111793999,0.));
#239=CARTESIAN_POINT('Origin',(-1.72141984715743E-15,14.0564597756345,0.));
#240=CARTESIAN_POINT('',(-2.65042475426287E-15,14.1903378254588,7.4520226992917));
#241=CARTESIAN_POINT('Origin',(-2.87840942169863E-15,14.0564597756345,9.44753683549201));
#242=CARTESIAN_POINT('',(-7.45202269929171,14.1903378254588,-9.126095745861E-16));
#243=CARTESIAN_POINT('Origin',(-1.73781517967677E-15,14.1903378254588,0.));
#244=CARTESIAN_POINT('Origin',(-1.73781517967677E-15,14.1903378254588,0.));
#245=CARTESIAN_POINT('Origin',(-8.68907589838386E-16,7.0951689127294,0.));
#246=CARTESIAN_POINT('',(-6.5,-1.11022302462516E-15,-7.9602041944578E-16));
#247=CARTESIAN_POINT('Origin',(9.74843858730208E-32,-7.9602041944578E-16,
0.));
#248=CARTESIAN_POINT('',(-6.97601134964585,7.0951689127294,-8.5431499701594E-16));
#249=CARTESIAN_POINT('Origin',(0.,0.,0.));
#250=UNCERTAINTY_MEASURE_WITH_UNIT(LENGTH_MEASURE(0.01),#254,
'DISTANCE_ACCURACY_VALUE',
'Maximum model space distance between geometric entities at asserted c
onnectivities');
#251=UNCERTAINTY_MEASURE_WITH_UNIT(LENGTH_MEASURE(0.01),#254,
'DISTANCE_ACCURACY_VALUE',
'Maximum model space distance between geometric entities at asserted c
onnectivities');
#252=(
GEOMETRIC_REPRESENTATION_CONTEXT(3)
GLOBAL_UNCERTAINTY_ASSIGNED_CONTEXT((#250))
GLOBAL_UNIT_ASSIGNED_CONTEXT((#254,#256,#257))
REPRESENTATION_CONTEXT('','3D')
);
#253=(
GEOMETRIC_REPRESENTATION_CONTEXT(3)
GLOBAL_UNCERTAINTY_ASSIGNED_CONTEXT((#251))
GLOBAL_UNIT_ASSIGNED_CONTEXT((#254,#256,#257))
REPRESENTATION_CONTEXT('','3D')
);
#254=(
LENGTH_UNIT()
NAMED_UNIT(*)
SI_UNIT(.MILLI.,.METRE.)
);
#255=(
LENGTH_UNIT()
NAMED_UNIT(*)
SI_UNIT(.CENTI.,.METRE.)
);
#256=(
NAMED_UNIT(*)
PLANE_ANGLE_UNIT()
SI_UNIT($,.RADIAN.)
);
#257=(
NAMED_UNIT(*)
SI_UNIT($,.STERADIAN.)
SOLID_ANGLE_UNIT()
);
#258=SHAPE_DEFINITION_REPRESENTATION(#259,#260);
#259=PRODUCT_DEFINITION_SHAPE('',$,#262);
#260=SHAPE_REPRESENTATION('',(#148),#252);
#261=DESIGN_CONTEXT('part definition',#266,'design');
#262=PRODUCT_DEFINITION('0530_00','0530_050_00',#263,#261);
#263=PRODUCT_DEFINITION_FORMATION('',$,#268);
#264=PRODUCT_RELATED_PRODUCT_CATEGORY('0530_050_00','0530_050_00',(#268));
#265=APPLICATION_PROTOCOL_DEFINITION('international standard',
'ap203_configuration_controlled_3d_design_of_mechanical_parts_and_asse
mblies_mim_lf',2004,#266);
#266=APPLICATION_CONTEXT(
'Configuration Controlled 3D Design of Mechanical Parts and Assemblies');
#267=MECHANICAL_CONTEXT('part definition',#266,'mechanical');
#268=PRODUCT('0530_00','0530_050_00',$,(#267));
#269=PRESENTATION_STYLE_ASSIGNMENT((#270));
#270=SURFACE_STYLE_USAGE(.BOTH.,#273);
#271=SURFACE_STYLE_RENDERING_WITH_PROPERTIES($,#277,(#272));
#272=SURFACE_STYLE_TRANSPARENT(0.);
#273=SURFACE_SIDE_STYLE('',(#274,#271));
#274=SURFACE_STYLE_FILL_AREA(#275);
#275=FILL_AREA_STYLE('',(#276));
#276=FILL_AREA_STYLE_COLOUR('',#277);
#277=COLOUR_RGB('',0.749019607843137,0.749019607843137,0.749019607843137);
ENDSEC;
END-ISO-10303-21;
